ISO-10303-21;
HEADER;
FILE_DESCRIPTION (( 'STEP AP203' ),
    '1' );
FILE_NAME ('End Cap SDR17_001 115 0140 0140.step',
    '2019-12-16T11:43:30',
    ( '' ),
    ( '' ),
    'SwSTEP 2.0',
    'SolidWorks 2019',
    '' );
FILE_SCHEMA (( 'CONFIG_CONTROL_DESIGN' ));
ENDSEC;

DATA;
#1 = ORIENTED_EDGE ( 'NONE', *, *, #107, .T. ) ;
#2 = VERTEX_POINT ( 'NONE', #85 ) ;
#3 = EDGE_CURVE ( 'NONE', #59, #151, #67, .T. ) ;
#4 = ORIENTED_EDGE ( 'NONE', *, *, #293, .F. ) ;
#5 = ORIENTED_EDGE ( 'NONE', *, *, #156, .F. ) ;
#6 = CYLINDRICAL_SURFACE ( 'NONE', #34, 61.70000000000000284 ) ;
#7 =( GEOMETRIC_REPRESENTATION_CONTEXT ( 3 ) GLOBAL_UNCERTAINTY_ASSIGNED_CONTEXT ( ( #19 ) ) GLOBAL_UNIT_ASSIGNED_CONTEXT ( ( #249, #226, #199 ) ) REPRESENTATION_CONTEXT ( 'NONE', 'WORKASPACE' ) );
#8 = ORIENTED_EDGE ( 'NONE', *, *, #191, .F. ) ;
#9 = CARTESIAN_POINT ( 'NONE',  ( 8.572527594031471415E-15, 0.0000000000000000000, 69.99999999999998579 ) ) ;
#10 = ORIENTED_EDGE ( 'NONE', *, *, #293, .T. ) ;
#11 = DIRECTION ( 'NONE',  ( 0.0000000000000000000, 0.0000000000000000000, 1.000000000000000000 ) ) ;
#12 = CARTESIAN_POINT ( 'NONE',  ( 0.0000000000000000000, 0.0000000000000000000, 0.0000000000000000000 ) ) ;
#13 = ORIENTED_EDGE ( 'NONE', *, *, #268, .T. ) ;
#14 = DATE_AND_TIME ( #230, #192 ) ;
#15 = DIRECTION ( 'NONE',  ( -0.0000000000000000000, -1.000000000000000000, -0.0000000000000000000 ) ) ;
#16 = APPROVAL_PERSON_ORGANIZATION ( #162, #28, #45 ) ;
#17 = ORIENTED_EDGE ( 'NONE', *, *, #3, .T. ) ;
#18 = DATE_AND_TIME ( #235, #139 ) ;
#19 = UNCERTAINTY_MEASURE_WITH_UNIT (LENGTH_MEASURE( 1.000000000000000082E-05 ), #249, 'distance_accuracy_value', 'NONE');
#20 = CARTESIAN_POINT ( 'NONE',  ( 0.0000000000000000000, 0.0000000000000000000, 0.0000000000000000000 ) ) ;
#21 = ORIENTED_EDGE ( 'NONE', *, *, #217, .T. ) ;
#22 = PERSON_AND_ORGANIZATION ( #144, #155 ) ;
#23 = DIRECTION ( 'NONE',  ( -0.0000000000000000000, -1.000000000000000000, -0.0000000000000000000 ) ) ;
#24 = ORIENTED_EDGE ( 'NONE', *, *, #268, .F. ) ;
#25 = DIRECTION ( 'NONE',  ( 0.0000000000000000000, -1.000000000000000000, -0.0000000000000000000 ) ) ;
#26 = ORIENTED_EDGE ( 'NONE', *, *, #161, .T. ) ;
#27 = EDGE_LOOP ( 'NONE', ( #55, #263, #170, #79 ) ) ;
#28 = APPROVAL ( #253, 'BELÝRTÝLMEMÝÞ' ) ;
#29 = ORIENTED_EDGE ( 'NONE', *, *, #107, .F. ) ;
#30 = ORIENTED_EDGE ( 'NONE', *, *, #73, .F. ) ;
#31 = VERTEX_POINT ( 'NONE', #246 ) ;
#32 = ORIENTED_EDGE ( 'NONE', *, *, #109, .T. ) ;
#33 = CARTESIAN_POINT ( 'NONE',  ( 0.0000000000000000000, 92.00000000000000000, 0.0000000000000000000 ) ) ;
#34 = AXIS2_PLACEMENT_3D ( 'NONE', #111, #198, #291 ) ;
#35 = ORIENTED_EDGE ( 'NONE', *, *, #209, .T. ) ;
#36 = EDGE_CURVE ( 'NONE', #31, #175, #251, .T. ) ;
#37 = ORIENTED_EDGE ( 'NONE', *, *, #217, .F. ) ;
#38 = ORIENTED_EDGE ( 'NONE', *, *, #161, .F. ) ;
#39 = VECTOR ( 'NONE', #271, 1000.000000000000000 ) ;
#40 = DIRECTION ( 'NONE',  ( 0.0000000000000000000, 0.0000000000000000000, -1.000000000000000000 ) ) ;
#41 = ADVANCED_FACE ( 'NONE', ( #307 ), #247, .T. ) ;
#42 = ORIENTED_EDGE ( 'NONE', *, *, #286, .T. ) ;
#43 = DIRECTION ( 'NONE',  ( 0.0000000000000000000, 0.0000000000000000000, -1.000000000000000000 ) ) ;
#44 = ORIENTED_EDGE ( 'NONE', *, *, #109, .F. ) ;
#45 = APPROVAL_ROLE ( '' ) ;
#46 = CARTESIAN_POINT ( 'NONE',  ( 8.572527594031472993E-15, 0.0000000000000000000, 70.00000000000000000 ) ) ;
#47 = ORIENTED_EDGE ( 'NONE', *, *, #177, .F. ) ;
#48 = APPROVAL_ROLE ( '' ) ;
#49 = DIRECTION ( 'NONE',  ( 0.0000000000000000000, 0.0000000000000000000, -1.000000000000000000 ) ) ;
#50 = LOCAL_TIME ( 14, 43, 30.00000000000000000, #260 ) ;
#51 = ORIENTED_EDGE ( 'NONE', *, *, #239, .T. ) ;
#52 = CALENDAR_DATE ( 2019, 16, 12 ) ;
#53 = ORIENTED_EDGE ( 'NONE', *, *, #191, .T. ) ;
#54 = FACE_BOUND ( 'NONE', #125, .T. ) ;
#55 = ORIENTED_EDGE ( 'NONE', *, *, #103, .T. ) ;
#56 = EDGE_LOOP ( 'NONE', ( #30, #32, #35, #37 ) ) ;
#57 = FACE_OUTER_BOUND ( 'NONE', #108, .T. ) ;
#58 = ADVANCED_FACE ( 'NONE', ( #195 ), #242, .F. ) ;
#59 = VERTEX_POINT ( 'NONE', #66 ) ;
#60 = AXIS2_PLACEMENT_3D ( 'NONE', #283, #80, #171 ) ;
#61 = VERTEX_POINT ( 'NONE', #133 ) ;
#62 = DIRECTION ( 'NONE',  ( -0.0000000000000000000, -1.000000000000000000, -0.0000000000000000000 ) ) ;
#63 = CC_DESIGN_PERSON_AND_ORGANIZATION_ASSIGNMENT ( #97, #187, ( #106 ) ) ;
#64 = CIRCLE ( 'NONE', #60, 280.0000000000000000 ) ;
#65 = CC_DESIGN_APPROVAL ( #28, ( #86 ) ) ;
#66 = CARTESIAN_POINT ( 'NONE',  ( 0.0000000000000000000, 0.0000000000000000000, -70.00000000000000000 ) ) ;
#67 = CIRCLE ( 'NONE', #258, 70.00000000000000000 ) ;
#68 = DIRECTION ( 'NONE',  ( 0.0000000000000000000, 0.0000000000000000000, -1.000000000000000000 ) ) ;
#69 = APPLICATION_PROTOCOL_DEFINITION ( 'international standard', 'config_control_design', 1994, #143 ) ;
#70 = CARTESIAN_POINT ( 'NONE',  ( 0.0000000000000000000, 0.0000000000000000000, 0.0000000000000000000 ) ) ;
#71 = DATE_TIME_ROLE ( 'creation_date' ) ;
#72 = DIRECTION ( 'NONE',  ( -1.224646799147353207E-16, 0.0000000000000000000, -1.000000000000000000 ) ) ;
#73 = EDGE_CURVE ( 'NONE', #61, #151, #227, .T. ) ;
#74 = PERSON_AND_ORGANIZATION ( #144, #155 ) ;
#75 = AXIS2_PLACEMENT_3D ( 'NONE', #302, #104, #190 ) ;
#76 = DIRECTION ( 'NONE',  ( -0.0000000000000000000, -1.000000000000000000, -0.0000000000000000000 ) ) ;
#77 = SHAPE_DEFINITION_REPRESENTATION ( #303, #91 ) ;
#78 = CARTESIAN_POINT ( 'NONE',  ( 0.0000000000000000000, -173.1261514913166764, 0.0000000000000000000 ) ) ;
#79 = ORIENTED_EDGE ( 'NONE', *, *, #209, .F. ) ;
#80 = DIRECTION ( 'NONE',  ( -1.000000000000000000, 0.0000000000000000000, 0.0000000000000000000 ) ) ;
#81 = CIRCLE ( 'NONE', #75, 61.70000000000000995 ) ;
#82 = AXIS2_PLACEMENT_3D ( 'NONE', #240, #25, #124 ) ;
#83 = ORIENTED_EDGE ( 'NONE', *, *, #36, .T. ) ;
#84 = AXIS2_PLACEMENT_3D ( 'NONE', #78, #169, #262 ) ;
#85 = CARTESIAN_POINT ( 'NONE',  ( 7.556070750739170947E-15, 0.0000000000000000000, 61.70000000000001705 ) ) ;
#86 = PRODUCT_DEFINITION ( 'BÝLÝNMEYEN', '', #106, #210 ) ;
#87 = DIRECTION ( 'NONE',  ( -0.0000000000000000000, -1.000000000000000000, -0.0000000000000000000 ) ) ;
#88 = TOROIDAL_SURFACE ( 'NONE', #84, 2.293184895835628012, 280.0000000000000000 ) ;
#89 = LOCAL_TIME ( 14, 43, 30.00000000000000000, #299 ) ;
#90 = LINE ( 'NONE', #180, #39 ) ;
#91 = ADVANCED_BREP_SHAPE_REPRESENTATION ( 'End Cap SDR17_001 115 0140 0140', ( #158, #285 ), #7 ) ;
#92 = DIRECTION ( 'NONE',  ( 0.0000000000000000000, 0.0000000000000000000, -1.000000000000000000 ) ) ;
#93 = AXIS2_PLACEMENT_3D ( 'NONE', #142, #213, #300 ) ;
#94 = CARTESIAN_POINT ( 'NONE',  ( -4.293440603042597559E-14, 106.8644578209127758, 0.0000000000000000000 ) ) ;
#95 = COORDINATED_UNIVERSAL_TIME_OFFSET ( 3, 0, .AHEAD. ) ;
#96 = CARTESIAN_POINT ( 'NONE',  ( 0.0000000000000000000, 92.00000000000000000, -61.69999999999998863 ) ) ;
#97 = PERSON_AND_ORGANIZATION ( #144, #155 ) ;
#98 = CARTESIAN_POINT ( 'NONE',  ( 0.0000000000000000000, 0.0000000000000000000, -69.99999999999998579 ) ) ;
#99 = CALENDAR_DATE ( 2019, 16, 12 ) ;
#100 = CIRCLE ( 'NONE', #93, 271.7002868703251579 ) ;
#101 = FACE_OUTER_BOUND ( 'NONE', #224, .T. ) ;
#102 = ORIENTED_EDGE ( 'NONE', *, *, #156, .T. ) ;
#103 = EDGE_CURVE ( 'NONE', #287, #61, #221, .T. ) ;
#104 = DIRECTION ( 'NONE',  ( -0.0000000000000000000, -1.000000000000000000, -0.0000000000000000000 ) ) ;
#105 = AXIS2_PLACEMENT_3D ( 'NONE', #238, #23, #123 ) ;
#106 = PRODUCT_DEFINITION_FORMATION_WITH_SPECIFIED_SOURCE ( 'HERHANGÝ', '', #284, .NOT_KNOWN. ) ;
#107 = EDGE_CURVE ( 'NONE', #2, #267, #214, .T. ) ;
#108 = EDGE_LOOP ( 'NONE', ( #5, #8, #10, #13 ) ) ;
#109 = EDGE_CURVE ( 'NONE', #61, #287, #204, .T. ) ;
#110 = TOROIDAL_SURFACE ( 'NONE', #105, 2.293184895835628012, 271.7002868703251579 ) ;
#111 = CARTESIAN_POINT ( 'NONE',  ( 0.0000000000000000000, 0.0000000000000000000, 0.0000000000000000000 ) ) ;
#112 = DIRECTION ( 'NONE',  ( -0.0000000000000000000, -1.000000000000000000, -0.0000000000000000000 ) ) ;
#113 = DIRECTION ( 'NONE',  ( 1.000000000000000000, 0.0000000000000000000, 0.0000000000000000000 ) ) ;
#114 = DIRECTION ( 'NONE',  ( -0.0000000000000000000, -1.000000000000000000, -0.0000000000000000000 ) ) ;
#115 = CC_DESIGN_PERSON_AND_ORGANIZATION_ASSIGNMENT ( #208, #297, ( #106 ) ) ;
#116 = APPROVAL_DATE_TIME ( #14, #28 ) ;
#117 = AXIS2_PLACEMENT_3D ( 'NONE', #280, #76, #168 ) ;
#118 = CIRCLE ( 'NONE', #117, 70.00000000000000000 ) ;
#119 = CARTESIAN_POINT ( 'NONE',  ( 2.808341542538158398E-16, -173.1261514913166764, 2.293184895835628012 ) ) ;
#120 = APPROVAL_DATE_TIME ( #18, #173 ) ;
#121 = DIRECTION ( 'NONE',  ( -0.0000000000000000000, -1.000000000000000000, -0.0000000000000000000 ) ) ;
#122 = APPROVAL_STATUS ( 'not_yet_approved' ) ;
#123 = DIRECTION ( 'NONE',  ( 0.0000000000000000000, 0.0000000000000000000, -1.000000000000000000 ) ) ;
#124 = DIRECTION ( 'NONE',  ( 0.0000000000000000000, 0.0000000000000000000, -1.000000000000000000 ) ) ;
#125 = EDGE_LOOP ( 'NONE', ( #24, #29 ) ) ;
#126 = ADVANCED_FACE ( 'NONE', ( #134 ), #229, .T. ) ;
#127 = AXIS2_PLACEMENT_3D ( 'NONE', #20, #121, #211 ) ;
#128 = CC_DESIGN_SECURITY_CLASSIFICATION ( #179, ( #106 ) ) ;
#129 = APPLICATION_CONTEXT ( 'configuration controlled 3d designs of mechanical parts and assemblies' ) ;
#130 = VERTEX_POINT ( 'NONE', #294 ) ;
#131 = DIRECTION ( 'NONE',  ( -0.0000000000000000000, -1.000000000000000000, -0.0000000000000000000 ) ) ;
#132 = VECTOR ( 'NONE', #188, 1000.000000000000000 ) ;
#133 = CARTESIAN_POINT ( 'NONE',  ( 8.572527594031471415E-15, 98.56445782091277863, 69.99999999999998579 ) ) ;
#134 = FACE_OUTER_BOUND ( 'NONE', #27, .T. ) ;
#135 = CC_DESIGN_PERSON_AND_ORGANIZATION_ASSIGNMENT ( #183, #274, ( #284 ) ) ;
#136 = COORDINATED_UNIVERSAL_TIME_OFFSET ( 3, 0, .AHEAD. ) ;
#137 = LINE ( 'NONE', #231, #178 ) ;
#138 = COORDINATED_UNIVERSAL_TIME_OFFSET ( 3, 0, .AHEAD. ) ;
#139 = LOCAL_TIME ( 14, 43, 30.00000000000000000, #138 ) ;
#140 = FACE_OUTER_BOUND ( 'NONE', #194, .T. ) ;
#141 = DATE_AND_TIME ( #52, #50 ) ;
#142 = CARTESIAN_POINT ( 'NONE',  ( 0.0000000000000000000, -173.1261514913166764, -2.293184895835628012 ) ) ;
#143 = APPLICATION_CONTEXT ( 'configuration controlled 3d designs of mechanical parts and assemblies' ) ;
#144 = PERSON ( 'BELÝRTÝLMEMÝÞ', 'BELÝRTÝLMEMÝÞ', 'BELÝRTÝLMEMÝÞ', ('BELÝRTÝLMEMÝÞ'), ('BELÝRTÝLMEMÝÞ'), ('BELÝRTÝLMEMÝÞ') ) ;
#145 = PLANE ( 'NONE',  #82 ) ;
#146 = VERTEX_POINT ( 'NONE', #94 ) ;
#147 = AXIS2_PLACEMENT_3D ( 'NONE', #165, #257, #49 ) ;
#148 = PRODUCT_RELATED_PRODUCT_CATEGORY ( 'detail', '', ( #284 ) ) ;
#149 = CIRCLE ( 'NONE', #147, 61.69999999999998863 ) ;
#150 = ADVANCED_FACE ( 'NONE', ( #184 ), #276, .T. ) ;
#151 = VERTEX_POINT ( 'NONE', #46 ) ;
#152 = ORIENTED_EDGE ( 'NONE', *, *, #177, .T. ) ;
#153 = DIRECTION ( 'NONE',  ( 0.0000000000000000000, 0.0000000000000000000, -1.000000000000000000 ) ) ;
#154 = AXIS2_PLACEMENT_3D ( 'NONE', #186, #278, #72 ) ;
#155 = ORGANIZATION ( 'BELÝRTÝLMEMÝÞ', 'BELÝRTÝLMEMÝÞ', '' ) ;
#156 = EDGE_CURVE ( 'NONE', #31, #2, #137, .T. ) ;
#157 = CARTESIAN_POINT ( 'NONE',  ( 0.0000000000000000000, -173.1261514913166764, 0.0000000000000000000 ) ) ;
#158 = MANIFOLD_SOLID_BREP ( 'Döndür1', #265 ) ;
#159 = CIRCLE ( 'NONE', #154, 271.7002868703251579 ) ;
#160 = CARTESIAN_POINT ( 'NONE',  ( 0.0000000000000000000, 98.56445782091277863, 0.0000000000000000000 ) ) ;
#161 = EDGE_CURVE ( 'NONE', #146, #61, #172, .T. ) ;
#162 = PERSON_AND_ORGANIZATION ( #144, #155 ) ;
#163 = DIRECTION ( 'NONE',  ( -0.0000000000000000000, -1.000000000000000000, -0.0000000000000000000 ) ) ;
#164 = PERSON_AND_ORGANIZATION ( #144, #155 ) ;
#165 = CARTESIAN_POINT ( 'NONE',  ( 0.0000000000000000000, 92.00000000000000000, 0.0000000000000000000 ) ) ;
#166 = PERSON_AND_ORGANIZATION_ROLE ( 'classification_officer' ) ;
#167 = AXIS2_PLACEMENT_3D ( 'NONE', #119, #207, #296 ) ;
#168 = DIRECTION ( 'NONE',  ( 0.0000000000000000000, 0.0000000000000000000, -1.000000000000000000 ) ) ;
#169 = DIRECTION ( 'NONE',  ( -0.0000000000000000000, -1.000000000000000000, -0.0000000000000000000 ) ) ;
#170 = ORIENTED_EDGE ( 'NONE', *, *, #3, .F. ) ;
#171 = DIRECTION ( 'NONE',  ( 0.0000000000000000000, 0.0000000000000000000, 1.000000000000000000 ) ) ;
#172 = CIRCLE ( 'NONE', #167, 280.0000000000000000 ) ;
#173 = APPROVAL ( #256, 'BELÝRTÝLMEMÝÞ' ) ;
#174 = AXIS2_PLACEMENT_3D ( 'NONE', #70, #163, #254 ) ;
#175 = VERTEX_POINT ( 'NONE', #96 ) ;
#176 = DIRECTION ( 'NONE',  ( 0.0000000000000000000, 0.0000000000000000000, -1.000000000000000000 ) ) ;
#177 = EDGE_CURVE ( 'NONE', #130, #31, #159, .T. ) ;
#178 = VECTOR ( 'NONE', #15, 1000.000000000000000 ) ;
#179 = SECURITY_CLASSIFICATION ( '', '', #279 ) ;
#180 = CARTESIAN_POINT ( 'NONE',  ( 0.0000000000000000000, 0.0000000000000000000, -61.70000000000000284 ) ) ;
#181 = CARTESIAN_POINT ( 'NONE',  ( 0.0000000000000000000, 0.0000000000000000000, 0.0000000000000000000 ) ) ;
#182 = AXIS2_PLACEMENT_3D ( 'NONE', #12, #114, #203 ) ;
#183 = PERSON_AND_ORGANIZATION ( #144, #155 ) ;
#184 = FACE_OUTER_BOUND ( 'NONE', #56, .T. ) ;
#185 = CALENDAR_DATE ( 2019, 16, 12 ) ;
#186 = CARTESIAN_POINT ( 'NONE',  ( 2.808341542538158398E-16, -173.1261514913166764, 2.293184895835628012 ) ) ;
#187 = PERSON_AND_ORGANIZATION_ROLE ( 'design_supplier' ) ;
#188 = DIRECTION ( 'NONE',  ( -0.0000000000000000000, -1.000000000000000000, -0.0000000000000000000 ) ) ;
#189 = DATE_AND_TIME ( #99, #89 ) ;
#190 = DIRECTION ( 'NONE',  ( 0.0000000000000000000, 0.0000000000000000000, -1.000000000000000000 ) ) ;
#191 = EDGE_CURVE ( 'NONE', #175, #31, #149, .T. ) ;
#192 = LOCAL_TIME ( 14, 43, 30.00000000000000000, #136 ) ;
#193 = ORIENTED_EDGE ( 'NONE', *, *, #239, .F. ) ;
#194 = EDGE_LOOP ( 'NONE', ( #301, #102, #1, #4 ) ) ;
#195 = FACE_OUTER_BOUND ( 'NONE', #306, .T. ) ;
#196 = APPROVAL ( #122, 'BELÝRTÝLMEMÝÞ' ) ;
#197 = AXIS2_PLACEMENT_3D ( 'NONE', #160, #252, #43 ) ;
#198 = DIRECTION ( 'NONE',  ( -0.0000000000000000000, -1.000000000000000000, -0.0000000000000000000 ) ) ;
#199 =( NAMED_UNIT ( * ) SI_UNIT ( $, .STERADIAN. ) SOLID_ANGLE_UNIT ( ) );
#200 = ADVANCED_FACE ( 'NONE', ( #140 ), #236, .F. ) ;
#201 = CARTESIAN_POINT ( 'NONE',  ( 0.0000000000000000000, 98.56445782091277863, 0.0000000000000000000 ) ) ;
#202 = MECHANICAL_CONTEXT ( 'NONE', #129, 'mechanical' ) ;
#203 = DIRECTION ( 'NONE',  ( 0.0000000000000000000, 0.0000000000000000000, -1.000000000000000000 ) ) ;
#204 = CIRCLE ( 'NONE', #197, 69.99999999999998579 ) ;
#205 = AXIS2_PLACEMENT_3D ( 'NONE', #181, #273, #68 ) ;
#206 = PERSON_AND_ORGANIZATION ( #144, #155 ) ;
#207 = DIRECTION ( 'NONE',  ( 1.000000000000000000, 0.0000000000000000000, -1.224646799147353207E-16 ) ) ;
#208 = PERSON_AND_ORGANIZATION ( #144, #155 ) ;
#209 = EDGE_CURVE ( 'NONE', #287, #59, #298, .T. ) ;
#210 = DESIGN_CONTEXT ( 'detailed design', #143, 'design' ) ;
#211 = DIRECTION ( 'NONE',  ( 0.0000000000000000000, 0.0000000000000000000, -1.000000000000000000 ) ) ;
#212 = APPROVAL_ROLE ( '' ) ;
#213 = DIRECTION ( 'NONE',  ( -1.000000000000000000, 0.0000000000000000000, 0.0000000000000000000 ) ) ;
#214 = CIRCLE ( 'NONE', #205, 61.70000000000000995 ) ;
#215 = CARTESIAN_POINT ( 'NONE',  ( 0.0000000000000000000, 0.0000000000000000000, -61.70000000000000995 ) ) ;
#216 = ORIENTED_EDGE ( 'NONE', *, *, #286, .F. ) ;
#217 = EDGE_CURVE ( 'NONE', #151, #59, #118, .T. ) ;
#218 = AXIS2_PLACEMENT_3D ( 'NONE', #201, #292, #92 ) ;
#219 = APPROVAL_PERSON_ORGANIZATION ( #22, #196, #212 ) ;
#220 = EDGE_LOOP ( 'NONE', ( #216, #26, #241 ) ) ;
#221 = CIRCLE ( 'NONE', #218, 69.99999999999998579 ) ;
#222 = DIRECTION ( 'NONE',  ( 0.0000000000000000000, 0.0000000000000000000, -1.000000000000000000 ) ) ;
#223 = CC_DESIGN_DATE_AND_TIME_ASSIGNMENT ( #277, #71, ( #86 ) ) ;
#224 = EDGE_LOOP ( 'NONE', ( #38, #42, #44 ) ) ;
#225 = VECTOR ( 'NONE', #112, 1000.000000000000000 ) ;
#226 =( NAMED_UNIT ( * ) PLANE_ANGLE_UNIT ( ) SI_UNIT ( $, .RADIAN. ) );
#227 = LINE ( 'NONE', #9, #225 ) ;
#228 = CARTESIAN_POINT ( 'NONE',  ( 0.0000000000000000000, 0.0000000000000000000, 0.0000000000000000000 ) ) ;
#229 = CYLINDRICAL_SURFACE ( 'NONE', #182, 69.99999999999998579 ) ;
#230 = CALENDAR_DATE ( 2019, 16, 12 ) ;
#231 = CARTESIAN_POINT ( 'NONE',  ( 7.556070750739169370E-15, 0.0000000000000000000, 61.70000000000000284 ) ) ;
#232 = AXIS2_PLACEMENT_3D ( 'NONE', #157, #250, #40 ) ;
#233 = ADVANCED_FACE ( 'NONE', ( #261 ), #110, .F. ) ;
#234 = LOCAL_TIME ( 14, 43, 30.00000000000000000, #95 ) ;
#235 = CALENDAR_DATE ( 2019, 16, 12 ) ;
#236 = CYLINDRICAL_SURFACE ( 'NONE', #127, 61.70000000000000284 ) ;
#237 = DATE_TIME_ROLE ( 'classification_date' ) ;
#238 = CARTESIAN_POINT ( 'NONE',  ( 0.0000000000000000000, -173.1261514913166764, 0.0000000000000000000 ) ) ;
#239 = EDGE_CURVE ( 'NONE', #130, #175, #100, .T. ) ;
#240 = CARTESIAN_POINT ( 'NONE',  ( 61.70000000000000995, 0.0000000000000000000, 0.0000000000000000000 ) ) ;
#241 = ORIENTED_EDGE ( 'NONE', *, *, #103, .F. ) ;
#242 = TOROIDAL_SURFACE ( 'NONE', #232, 2.293184895835628012, 271.7002868703251579 ) ;
#243 = AXIS2_PLACEMENT_3D ( 'NONE', #290, #87, #176 ) ;
#244 = EDGE_LOOP ( 'NONE', ( #47, #51, #53 ) ) ;
#245 = ADVANCED_FACE ( 'NONE', ( #101 ), #88, .T. ) ;
#246 = CARTESIAN_POINT ( 'NONE',  ( 7.556070750739167792E-15, 92.00000000000000000, 61.69999999999998863 ) ) ;
#247 = TOROIDAL_SURFACE ( 'NONE', #243, 2.293184895835628012, 280.0000000000000000 ) ;
#248 = AXIS2_PLACEMENT_3D ( 'NONE', #33, #131, #222 ) ;
#249 =( LENGTH_UNIT ( ) NAMED_UNIT ( * ) SI_UNIT ( .MILLI., .METRE. ) );
#250 = DIRECTION ( 'NONE',  ( -0.0000000000000000000, -1.000000000000000000, -0.0000000000000000000 ) ) ;
#251 = CIRCLE ( 'NONE', #248, 61.69999999999998863 ) ;
#252 = DIRECTION ( 'NONE',  ( -0.0000000000000000000, -1.000000000000000000, -0.0000000000000000000 ) ) ;
#253 = APPROVAL_STATUS ( 'not_yet_approved' ) ;
#254 = DIRECTION ( 'NONE',  ( 0.0000000000000000000, 0.0000000000000000000, -1.000000000000000000 ) ) ;
#255 = CC_DESIGN_DATE_AND_TIME_ASSIGNMENT ( #141, #237, ( #179 ) ) ;
#256 = APPROVAL_STATUS ( 'not_yet_approved' ) ;
#257 = DIRECTION ( 'NONE',  ( -0.0000000000000000000, -1.000000000000000000, -0.0000000000000000000 ) ) ;
#258 = AXIS2_PLACEMENT_3D ( 'NONE', #269, #62, #153 ) ;
#259 = CC_DESIGN_APPROVAL ( #196, ( #179 ) ) ;
#260 = COORDINATED_UNIVERSAL_TIME_OFFSET ( 3, 0, .AHEAD. ) ;
#261 = FACE_OUTER_BOUND ( 'NONE', #244, .T. ) ;
#262 = DIRECTION ( 'NONE',  ( 0.0000000000000000000, 0.0000000000000000000, -1.000000000000000000 ) ) ;
#263 = ORIENTED_EDGE ( 'NONE', *, *, #73, .T. ) ;
#264 = CARTESIAN_POINT ( 'NONE',  ( 0.0000000000000000000, 98.56445782091277863, -69.99999999999998579 ) ) ;
#265 = CLOSED_SHELL ( 'NONE', ( #58, #41, #126, #200, #288, #266, #150, #245, #233 ) ) ;
#266 = ADVANCED_FACE ( 'NONE', ( #282, #54 ), #145, .T. ) ;
#267 = VERTEX_POINT ( 'NONE', #215 ) ;
#268 = EDGE_CURVE ( 'NONE', #267, #2, #81, .T. ) ;
#269 = CARTESIAN_POINT ( 'NONE',  ( 0.0000000000000000000, 0.0000000000000000000, 0.0000000000000000000 ) ) ;
#270 = APPROVAL_PERSON_ORGANIZATION ( #164, #173, #48 ) ;
#271 = DIRECTION ( 'NONE',  ( -0.0000000000000000000, -1.000000000000000000, -0.0000000000000000000 ) ) ;
#272 = APPLICATION_PROTOCOL_DEFINITION ( 'international standard', 'config_control_design', 1994, #129 ) ;
#273 = DIRECTION ( 'NONE',  ( -0.0000000000000000000, -1.000000000000000000, -0.0000000000000000000 ) ) ;
#274 = PERSON_AND_ORGANIZATION_ROLE ( 'design_owner' ) ;
#275 = CC_DESIGN_PERSON_AND_ORGANIZATION_ASSIGNMENT ( #206, #295, ( #86 ) ) ;
#276 = CYLINDRICAL_SURFACE ( 'NONE', #174, 69.99999999999998579 ) ;
#277 = DATE_AND_TIME ( #185, #234 ) ;
#278 = DIRECTION ( 'NONE',  ( 1.000000000000000000, 0.0000000000000000000, -1.224646799147353207E-16 ) ) ;
#279 = SECURITY_CLASSIFICATION_LEVEL ( 'unclassified' ) ;
#280 = CARTESIAN_POINT ( 'NONE',  ( 0.0000000000000000000, 0.0000000000000000000, 0.0000000000000000000 ) ) ;
#281 = APPROVAL_DATE_TIME ( #189, #196 ) ;
#282 = FACE_OUTER_BOUND ( 'NONE', #289, .T. ) ;
#283 = CARTESIAN_POINT ( 'NONE',  ( 0.0000000000000000000, -173.1261514913166764, -2.293184895835628012 ) ) ;
#284 = PRODUCT ( 'End Cap SDR17_001 115 0140 0140', 'End Cap SDR17_001 115 0140 0140', '', ( #202 ) ) ;
#285 = AXIS2_PLACEMENT_3D ( 'NONE', #228, #11, #113 ) ;
#286 = EDGE_CURVE ( 'NONE', #146, #287, #64, .T. ) ;
#287 = VERTEX_POINT ( 'NONE', #264 ) ;
#288 = ADVANCED_FACE ( 'NONE', ( #57 ), #6, .F. ) ;
#289 = EDGE_LOOP ( 'NONE', ( #17, #21 ) ) ;
#290 = CARTESIAN_POINT ( 'NONE',  ( 0.0000000000000000000, -173.1261514913166764, 0.0000000000000000000 ) ) ;
#291 = DIRECTION ( 'NONE',  ( 0.0000000000000000000, 0.0000000000000000000, -1.000000000000000000 ) ) ;
#292 = DIRECTION ( 'NONE',  ( -0.0000000000000000000, -1.000000000000000000, -0.0000000000000000000 ) ) ;
#293 = EDGE_CURVE ( 'NONE', #175, #267, #90, .T. ) ;
#294 = CARTESIAN_POINT ( 'NONE',  ( -2.126605429548597157E-14, 98.56445782091277863, 0.0000000000000000000 ) ) ;
#295 = PERSON_AND_ORGANIZATION_ROLE ( 'creator' ) ;
#296 = DIRECTION ( 'NONE',  ( -1.224646799147353207E-16, 0.0000000000000000000, -1.000000000000000000 ) ) ;
#297 = PERSON_AND_ORGANIZATION_ROLE ( 'creator' ) ;
#298 = LINE ( 'NONE', #98, #132 ) ;
#299 = COORDINATED_UNIVERSAL_TIME_OFFSET ( 3, 0, .AHEAD. ) ;
#300 = DIRECTION ( 'NONE',  ( 0.0000000000000000000, 0.0000000000000000000, 1.000000000000000000 ) ) ;
#301 = ORIENTED_EDGE ( 'NONE', *, *, #36, .F. ) ;
#302 = CARTESIAN_POINT ( 'NONE',  ( 0.0000000000000000000, 0.0000000000000000000, 0.0000000000000000000 ) ) ;
#303 = PRODUCT_DEFINITION_SHAPE ( 'NONE', 'NONE',  #86 ) ;
#304 = CC_DESIGN_PERSON_AND_ORGANIZATION_ASSIGNMENT ( #74, #166, ( #179 ) ) ;
#305 = CC_DESIGN_APPROVAL ( #173, ( #106 ) ) ;
#306 = EDGE_LOOP ( 'NONE', ( #193, #152, #83 ) ) ;
#307 = FACE_OUTER_BOUND ( 'NONE', #220, .T. ) ;
ENDSEC;
END-ISO-10303-21;
